Guitare mania - le blog du guitariste

Guitare mania - le blog du guitariste

Angie - Rolling sone

Angie
Am7                          E7
e----0-0-0-----3-0------------------0----------------0-------
B----1---1-----1------1-----------3---3--------3-------------
G----2---2-----2-----2----------4-------4------4-------------
D----2-------2-----------2-2---------------------------------
A----0-------------------------------------------------------
E-----------------------------0-------------4----------------
 
    G4                 F4   F                    C            C7M/B         Am
e-----------3-----------1--1--1--------1------------0-------------------------
B--------3-----3--------1--1----1-------------------1----------1--------0~1----
G-----5-----------5-----3--2---------2---------0-0-----------------0----0~2----    
D--5-----------------5--3--3-------3---------3---2----------0-----------0~2----
A-------------------------------------------3----3-------2--------------0------
E------------------------------------------------------------------------------
 
Am (7)       E (7)
Angie, Angie, 
Gsus                     Fsus    F          C
when will those clouds all disappear?
Am (7)  E (7)
Angie, Angie,
Gsus           Fsus   F           C
where will it lead us from here?
         
         G
With no loving in our souls 

Angie en entier
 
 Am   E       G                 F              C       B 
 Angie, Angie, when will those clouds all disappear?
  Am   E      G                 F            C 
 Angie, Angie, where will they lead us from here?
          G                         Dm            Am 
 With no loving in our souls and no money in our coats
  C         F              G 
 You can't say we're satisfied
  Am   E     G            F            C    B 
 Angie, Angie, you can't say we never tried


  Am   E                G              F               C   B 
 Angie, you're beautiful but ain't it time we said goodbye
  Am       E             G          F                   C 
 Angie, I still love you, remember all those nights we cried
          G                               Dm            Am 
 All the dreams we held so close, seem to all go up in smoke
  C          F               G 
 Oh! let me whisper in your ear
  Am   E      G                 F            C    B 
 Angie, Angie, where will they lead us from here?


 Am   E   G   F   C   B      Am   E   G   F   C 


      G                              Dm           


21/05/2016
0 Poster un commentaire

A découvrir aussi


Inscrivez-vous au blog

Soyez prévenu par email des prochaines mises à jour

Rejoignez les 16 autres membres