Guitare mania - le blog du guitariste

Guitare mania - le blog du guitariste

Jimmy hendrix - hey joe

Jimmy hendrix - hey joe

Notation legend:
 s - slide
 h - hammer on
 p - pull off
 b - nend
 r - release
  - slide down to "nowhere"
 / - slide up to "nowhere"
 ~ - vibrato
 
"Hey Joe" by Jimi Hendirx.
 
 
Chords go like this: C-G-D-A-E-E
 
 
   Intro:
                       Let ring
 
E-|----0---0----------|-----0----------------0-|--------------------------
B-|--3s5-5s3----------|-----0----------------0-|-----0------7-----7-------
G-|----------4s2--0h1-|-1---1------4---4---3-1-|---9-1--7---7-7---7-------
D-|---------------0h2-|-2-----2----5---5---4---|---9-2--7h9---7h9---9----
A-|-------------------|-------2--4s5---5---4---|-6s7-2--------------------
E-|-------------------|-0-----0------0---0-----|-----0--------------------
 
 
   Verses:
 
    (C)      (G)        (D)        (A)           (E)
E-|-------------------|------------------------|----------0---------------
B-|----1---------3----|---------------5--------|----0-----0---------------
G-|----0---------4----|-------7-------6--------|----1--1--1---------------
D-|-------2---------5-|-7---7-7h9-------7------|-2--2--2------------------
A-|-3-----3---------5-|-7h9---------7----7-----|-2-----2------------------
E-|-----------3-------|------------5-----------|-0------------------------
 
         Hey__ joe__   where you goin' with that   gun in your hand.
 
    (E)
E-|-----------------------------------------
B-|--------------5--------------------------
G-|--------------x---9-----7----------------
D-|---------5b---6---9-----7----------------
A-|-----5------7-7---7-7h9------------------
E-|-6s7 --7---------------------------------
 
 
 
    (C)      (G)        (D)          (A)         (E)
E-|--------------3----|---------2--------------|-------0----------
B-|----1---------3----|---3-3---3------2-3p2---|-------0----------
G-|----0---------0----|---2-2h4---2----2-2-2-2-|-------1--1-------
D-|-------2---------0-|-0---------0--2---4p2-2-|-2-2------2-------
A-|-3-----3---2-------|--------------0-------0-|-2-2------2-------
E-|-----------3-------|------------------------|-0-0--------------
 
     Hey__   Joe__     said where you goin' whith that gun in your hand.
 
    (E)
E-|---------------------------------0--0-------
B-|-----3------------0--2-2h3-2p0---0--0-------
G-|-2-s-4-4s2p0-1--1-1--2-2-----0-1-1--1-------
D-|-------------2--2-2--2-2h4-2p0-2----2-------
A-|-------------2--2-2------------2----2-------
E-|----------------0--------------0----0-------
 
      All right.
 
   Solo:
 
    (C)             (G)      Slight bend.
E-|--------12----------------------------
B-|--15b17----15-12----------------------
G-|--------------12-14p12----12b---------
D-|-----------------------14-------------
A-|--------------------------------------
E-|--------------------------------------
 
 
 
    (D)                   (A)         Hold.
E-|-------12-12------------------------------------------
B-|-15b17----15-12---------------------------------------
G-|----------------14-12--14p12-14b16-12~----------------
D-|------------------------------------------14---------
A-|------------------------------------------------------
E-|------------------------------------------------------
 
 
 
    (E)      Slight bend.     Hold Bends.
A-|------------------------------------------------
B-|------------------12-------15b~---15b~----------
G-|-12----12-12b-----12----------------------------
D-|-12----12-----14--12----------------------------
A-|-12h14------------------------------------------
E-|------------------------------------------------
 
 
                                          Let
    (C)                        (G)        ring.
E-|-12-12-12-------12------------------------------------
B-|-12-15-12-12----12-15-------12------------------------
G-|----------14b16-------14b16----------14-12~-----------
D-|-------------------------------12-14------------------
A-|------------------------------------------------------
E-|------------------------------------------------------
 
 
 
    (D)                   (A)
E-|----------12-15b17r15~-12----------12---------------------
B-|-------12-----------------------15----15------------------
G-|--14b16-------------------14b16----------14b16r14---------
D-|----------------------------------------------------------
A-|----------------------------------------------------------
E-|----------------------------------------------------------
 
 
 
    (E) Let ring.              Sligth bend.
A-|-----------------------------------------------------
B-|-----------------------------12b---------------------
G-|-12b~------------12----12----12b----------13---------
D-|---------14-----12----12h14------14------14---------
A-|-----------------12h14--------------------14---------
E-|---------------------------------------0-------------
 
 
 
    (C)     (G)        (D)    (A)        (E)                 Improvise !
A-|------------------|-----------------|---0---------------|--------------
B-|------------------|-----------------|---0-------7-7-9-9-|-7-----9------
G-|------------------|-----------------|-----------7-7-9-9-|-7-and-9------
D-|------------------|-----------------|-9---7h9b7-7---9---|-7-----9------
A-|--3---------2-3-4-|-5---------4-5-6-|-7-----------------|--------------
E-|----0-1-2-3-------|---2-3-4-5-------|-0-----------------|--------------
 
 
   Lyrics:
 
   Hey Joe. Where you goin' with that gun in your hand.
   Said, Hey Joe. Where you goin' with that gun in your hand.
   I'm goin' down to shoot my old lady,
   you know I caugth her messin' round with another man.
   I'm goin' down to shoot my old lady,
   you know I caught her messin' round with another man.
   (Ain't that too cool.)
 
   Hey Joe. I heard you shot your woman down,
   you shot her down now.
   Hey Joe. I heard you shot your old woman down,
   you shot her down in the ground.
   Yes I did, I shot her,
   you know I caught her messin' round with another man.
   Oh yes I did i shot her,
   you know I caught my old lady messin round town.

   (And I gave her the gun - I shot her !).

 
 
 
(Instrumental Lead-In)
1)-(0)---------------------------(3)---------3---3(up)--(2)--2----------------|
2)-(1)---------------------------(3)---------3---3------(3)--3---3----3----3--|
3)-(0)----------0--0h2--0--------(0)------0--0---0------(2)--2--2h4---2----0--|
4)-(2)------0h2------------0h2-0-(0)---0--0--0---0------(0)--0----------------|
5)-(3)----3----------------------(2)--0h2---------------(0)--0----------------|
6)-(X)---------------------------(3)--------------------(X)-------------------|
 
 
1)-(0)---------------------(0)--------0--0--0--0--0--0---0---0---0--0--0--0--|
2)-(2)----------2---2------(0)--------0--3--0--2--0--0--0h2-----0h2----2--0--|
3)-(2)--2---2---2--2h4--2--(1)--1--1-----------------------------------------|
4)-(2)--2--2h4----------2--(2)--2--2-----------------------------------------|
5)-(0)--0---------------3--(2)--2--2-----------------------------------------|
6)-------------------------(0)--0--0-----------------------------------------|
 
(First Vocal-Line)
1)-(0)-----------------------(3)--3-----------(2)---------------(0)------------|
2)-(1)-----------------------(3)--------------(3)---------------(2)------------|
3)-(0)-----------0-----0--0--(0)--0-------0---(2)--2--2h4--2--2-(2)--2--2--2-0-|
4)-(2)------2---0h2----2--0--(0)--0---0---0---(0)--0---0---0--0-(2)--2--2--2-0-|
5)-(3)--3---3----------3-----(2)--2--0h2------(0)--0------------(0)--0--0--0-0-|
6)-(X)-----------------------(3)--3-----------(X)---------------(X)------------|
......................Hey........ Joe,..........................where ya goin'
 
 
1)-----(0)------------------------0--0--0--0--0--0-|(0)--0---0----------------|
2)-----(0)------------------------0--3--0--2--0--0-|(3)-3h5--3----------------|
3)-----(1)-------------3---------------------------|(4)--------(4)--0-------|
4)-----(2)--2----------2-------2-------------------|---------------------2--0-|
5)-----(2)--2----------2-------2-------------------|--------------------------|
6)-----(0)--0------------------0-------------------|--------------------------|
 with  that gun in your hand?                        (turnaround back to the C)
 
 
(repeat the vocal-line licks, starting from the C chord thru E chord positions
 for each vocal-line, using that C-G-D-A-E progression)
 
 
HEY JOE by Billie Roberts
 
Hey, Joe. Where you goin' with that gun in your hand.
Hey, Joe. Where you goin' with that gun in your hand.
Goin' down an' shoot my ol' lady. Caught her messin' round with another man.
 
 
Hey Joe, can you tell me where you gonna go?
Hey Joe, won't ya tell me where you gonna go?
I'm runnin' down to Mexico, find a place where I can be free.
 
Find a place where there ain't no hangman
Tryin' to put his noose around me.
 
 
These are addditional variations that may be used for verses or as
an instrumental break.
 
1)-(0)------------------------------------------3--2---2(up)--2---------2---|
2)-(1)---------1-----1-----1----1--1------------3--2---2------2---------2---|
3)-(0)---------0----0h2---2h3---2--0--0---0--0--0--0---0------0---------0---|
4)-(2)----0h2------------------------0h2--2--0--0--0---0------0---------0---|
5)-(3)--3---------------------------------------2--2---2------2---------2---|
6)-(X)------------------------------------------3^-3-^-3------3^--------3^--|
(Play this C through G formation as a two chord extension)
 
 
1)-(0)-0-----------------------0--0---------------------------------|
2)-(3)-3--------3------3---3---3--3--3------------------------------|
3)-(2)-2-------2h4-----2---0---2--2--0---2---2---2--0--2---2----0---|
4)-(0)-0-----------------------0--0--0---2--2h4--2--0--2---2----0---|
5)-(0)-0---------------------------------0-------------0---0----3---|
6)-(X)--------------------------------------------------------------|
     (let ring)(Play this extended D through A formation two chord extension
 
 
1)--0-------0--------------------------------------------|
2)--0-------0----(repeat---------------------------------|
3)--1-------1----------chord-----------------------------|
4)--2-------2--------------fading..)---------------------|
5)--2-------2--------------------------------------------|
6)--0-------0--------------------------------------------|
 ...into a repeated E chord that fades out. Pause. And then play this...
 
 
1)--------------------3--5--5b6b5--p3-----------------------------------------|
2)--------0---h3---5--------------------5--3----------------------------------|
3)---------------------------------------------4-----0--2b3b2---0-----------|
4)-------------------------------------------------------------------2--0-----|
5)-------------------------------------------------------------------------2--|
6)----------------------------------------------------------------------------|
 ...single-string closing figure.
 
 
1)--------------------0--------------------0--0---||
2)-------------------0---------------------0--3---||
3)------------------1-----------------------------||
4)-----------------2------------------------------||
5)---0------------2-------------------------------||
6)-------3~~~----0--------------------------------||
 into a slowly strummed full E chord....then....  End.
/ C G D A E EE7 E - / :
 
 
I'm goin' down to shoot my old lady now
You know I caught her messin' 'round with another man
I'm goin' down to shoot my old lady
You know I caught her messin' 'round with another man
Huh, and that ain't too cool
 
Hey Joe, I heard you shot your woman down
You shot her down down
Hey Joe, I heard you shot your lady down
You shot her down to the ground
 
Yes, I did, I shot her
You know I caught her messin' 'round, messin' 'round town
Yes, I did, I shot her
You know I caught my old lady messin' 'round the town
And I gave her the gun, I shot her
 
Hey Joe, where you gonna run to now
Where you gonna run to
Hey Joe, I said, where you gonna run to now
Where you, where you gonna go


21/05/2016
0 Poster un commentaire

A découvrir aussi


Inscrivez-vous au blog

Soyez prévenu par email des prochaines mises à jour

Rejoignez les 16 autres membres