Guitare mania - le blog du guitariste

Guitare mania - le blog du guitariste

Les Copains d'Abord Georges Brassens

Les Copains d'Abord  Georges Brassens  
 
 
F   133211  E7   022130
G7  320001  F#   244322
Bb  x13331  F#7  242322
A   x02220  Bm   x24432
D   xx0232
 
               F
e|-----------|------------------------|-----10--12-13-12---10-8----|
B|--6---8--9-|-10--8--6--8--10--8-6-8-|-10----------------------10-|
G|-----------|------------------------|----------------------------|
D|-----------|------------------------|----------------------------|
A|-----------|------------------------|----------------------------|
E|-----------|------------------------|----------------------------|
 
  G7                                          Bb
e|----------------------|--------------------|---------------------|
B|-108-8-8---8--10-8-6-|------------------5-|-6--6-5-6-----6-5----|
G|----------9---10------|-4-----------6--7---|----------7--------7-|
D|----------------------|--------------------|---------------------|
A|----------------------|--------------------|---------------------|
E|----------------------|--------------------|---------------------|
 
  A                            D             G7        A    A7    
e|----------------------------|-----------------------|------------|
B|---/10--10--9--8----11-10-8-|-6--6--6-----/10-8-----|-6~---------|
G|-6--------------------------|---------7-4-------7-9-|------------|
D|----------------------------|-----------------------|------------|
A|----------------------------|-----------------------|------------|
E|----------------------------|-----------------------|------------|
           D
Non, ce n'était pas le radeau
De la Méduse, ce bateau
            E7
Qu'on se le dise au fond des ports
Dise au fond des ports
       G
Il naviguait en p?r' peinard
             F#        F#7
Sur la grand-mare des canards
         Bm               E7
Et s'app'lait les Copains d'abord
      A7       D
Les Copains d'abord
 
Ses fluctuat nec mergitur
C'était pas d'la litterature
N'en déplaise aux jeteurs de sort
Aux jeteurs de sort
Son capitaine et ses mat'lots
N'?taient pas des enfants d'salauds
Mais des amis franco de port
Des copains d'abord
 
C'étaient pas des amis de luxe
Des petits Castor et Pollux
Des gens de Sodome et Gomorrhe
Sodome et Gomorrhe
C'étaient pas des amis choisis
Par Montaigne et La Boetie
Sur le ventre ils se tapaient fort
Les copains d'abord
 
C'étaient pas des anges non plus
L'évangile, ils l'avaient pas lu
Mais ils s'aimaient tout's voil's dehors
Tout's voil's dehors
Jean, Pierre, Paul et compagnie
C'?tait leur seule litanie
Leur Credo, leur Confiteor
Aux copains d'abord
 
Au moindre coup de Trafalgar
C'est l'amitié qui prenait l'quart
C'est elle qui leur montrait le nord
Leur montrait le nord
Et quand ils étaient en détresse
Qu'leurs bras lancaient des S.O.S.
On aurait dit les sémaphores
Les copains d'abord
 
Au rendez-vous des bons copains
Y avait pas souvent de lapins
Quand l'un d'entre eux manquait à bord
C'est qu'il ?tait mort
Oui, mais jamais, au grand jamais
Son trou dans l'eau n'se refermait
Cent ans après, coquin de sort
Il manquait encore
 
Des bateaux j'en ai pris beaucoup
Mais le seul qu'ait tenu le coup
Qui n'ai jamais viré de bord
Mais viré de bord
Naviguait en père peinard
Sur la grand mare des canards
Et s'app'lait les Copains d'abord
Les Copains d'abord


21/05/2016
0 Poster un commentaire

Inscrivez-vous au blog

Soyez prévenu par email des prochaines mises à jour

Rejoignez les 16 autres membres